Raining Blood

Raining Blood – utwór thrashmetalowego zespołu Slayer, pochodzący z płyty Reign in Blood. Został wydany jako singel przez Def Jam.

Raining Blood
Wykonawca utworu
z albumu Reign in Blood
Slayer
Wydany

7 października 1986

Nagrywany

1986
Los Angeles (Kalifornia)

Gatunek

thrash metal, speed metal

Długość

4:17

Twórca

Jeff Hanneman, Kerry King

Producent

Rick Rubin, Slayer

Wydawnictwo

Def Jam

Utwór zaczyna się od dźwięków błyskawic i deszczu, przechodząc w jeden z najsłynniejszych riffów w muzyce thrashmetalowej.

InterpretacjeEdytuj

W 2001 roku wydany został cover utworu, wykonany przez Tori Amos, zaś w 2006 grupa Vader nagrała swoją wersję tego utworu na japońskie wydanie płyty Impressions in Blood. Znalazł się on również w jednym z odcinków South Parku. Utwór był wykonywany także przez grupę Chimaira – został wydany na wydawnictwie 2000-12-29: Cleveland, OH, USA.

TabulaturaEdytuj

e|-----------------------------------------------------------------|
B|-----------------------------------------------------------------|
G|-----------------------------------------------------------------|
D|---------8-9-8-----8-7-----7-6-------------8-9-8-----8-7-----7-6-|
A|-------7---------9-------8---------------7---------9-------8-----|
E|-0-0-0-----------------------------0-0-0-------------------------|

e|-----------------------------------------------------------------|
B|-----------------------------------------------------------------|
G|---------8-9-8-----8-7-----7-6-------------8-9-8-----8-7-----7-6-|
D|-------7-8-9-8---9-8-7-----7-6-----------7-8-9-8---9-8-7---8-7-6-|
A|-------7---------9-------8---------------7---------9-------8-----|
E|-0-0-0-----------------------------0-0-0-------------------------|